ISO-10303-21;
HEADER;
FILE_DESCRIPTION(('STEP AP203'),
    '1');
FILE_NAME('ÐË129.6 Øâåëëåð',
    '2015-09-30T09:48:11',
    (''),
    (''),
    'ASCON STEP Converter 1.3',
    'ASCON Math Kernel',
    '');
FILE_SCHEMA(('CONFIG_CONTROL_DESIGN'));
ENDSEC;

DATA;
#1=SHAPE_REPRESENTATION('NONE',(#2),#6);
#2=AXIS2_PLACEMENT_3D('',#3,#4,#5);
#3=CARTESIAN_POINT('',(0.,0.,0.));
#4=DIRECTION('',(0.,0.,1.));
#5=DIRECTION('',(1.,0.,0.));
#6=(GEOMETRIC_REPRESENTATION_CONTEXT(3)GLOBAL_UNCERTAINTY_ASSIGNED_CONTEXT((#8))
GLOBAL_UNIT_ASSIGNED_CONTEXT((#7,#9,#10))REPRESENTATION_CONTEXT('NONE','NONE'));
#7=(LENGTH_UNIT()NAMED_UNIT(*)SI_UNIT(.MILLI.,.METRE.));
#8=UNCERTAINTY_MEASURE_WITH_UNIT(LENGTH_MEASURE(1.E-005),#7,'NONE','NONE');
#9=(NAMED_UNIT(*)PLANE_ANGLE_UNIT()SI_UNIT($,.RADIAN.));
#10=(NAMED_UNIT(*)SI_UNIT($,.STERADIAN.)SOLID_ANGLE_UNIT());
#11=SHAPE_DEFINITION_REPRESENTATION(#12,#1);
#12=PRODUCT_DEFINITION_SHAPE('NONE','NONE',#13);
#13=PRODUCT_DEFINITION('','UNSPECIFIED',#14,#22);
#14=PRODUCT_DEFINITION_FORMATION_WITH_SPECIFIED_SOURCE('ANY','UNSPECIFIED',#15,.NOT_KNOWN.);
#15=PRODUCT('ÐË129.624','ÐË129.6 Øâåëëåð','NONE',(#25));
#16=PERSON('UNSPECIFIED','UNSPECIFIED','UNSPECIFIED',('UNSPECIFIED'),('UNSPECIFIED'),
('UNSPECIFIED'));
#17=ORGANIZATION('UNSPECIFIED','UNSPECIFIED','UNSPECIFIED');
#18=PERSON_AND_ORGANIZATION(#16,#17);
#19=PERSON_AND_ORGANIZATION_ROLE('design_owner');
#20=CC_DESIGN_PERSON_AND_ORGANIZATION_ASSIGNMENT(#18,#19,(#15));
#21=PRODUCT_RELATED_PRODUCT_CATEGORY('detail','',(#15));
#22=DESIGN_CONTEXT('detailed design',#23,'design');
#23=APPLICATION_CONTEXT('configuration controlled 3d designs of mechanical parts and assemblies');
#24=APPLICATION_PROTOCOL_DEFINITION('international standard','config_control_design',
1994,#23);
#25=MECHANICAL_CONTEXT('NONE',#23,'mechanical');
#26=CC_DESIGN_DATE_AND_TIME_ASSIGNMENT(#27,#31,(#13));
#27=DATE_AND_TIME(#28,#29);
#28=CALENDAR_DATE(0,1,1);
#29=LOCAL_TIME(0,0,0.,#30);
#30=COORDINATED_UNIVERSAL_TIME_OFFSET(0,0,.AHEAD.);
#31=DATE_TIME_ROLE('creation_date');
#32=CC_DESIGN_APPROVAL(#33,(#13));
#33=APPROVAL(#34,'UNSPECIFIED');
#34=APPROVAL_STATUS('not_yet_approved');
#35=APPROVAL_DATE_TIME(#36,#33);
#36=DATE_AND_TIME(#37,#38);
#37=CALENDAR_DATE(0,1,1);
#38=LOCAL_TIME(0,0,0.,#39);
#39=COORDINATED_UNIVERSAL_TIME_OFFSET(0,0,.AHEAD.);
#40=MANIFOLD_SOLID_BREP('',#41);
#41=CLOSED_SHELL('',(#53,#54,#55,#56,#57,#58,#59,#60,#61,#62,#63,#64,#65,#66,#67,
#68,#69,#70,#71,#72,#73,#74));
#42=COLOUR_RGB($,0.564705882352941,0.564705882352941,0.564705882352941);
#43=FILL_AREA_STYLE_COLOUR($,#42);
#44=FILL_AREA_STYLE($,(#43));
#45=SURFACE_STYLE_FILL_AREA(#44);
#46=SURFACE_SIDE_STYLE($,(#45));
#47=SURFACE_STYLE_USAGE(.BOTH.,#46);
#48=PRESENTATION_STYLE_ASSIGNMENT((#47));
#49=MECHANICAL_DESIGN_GEOMETRIC_PRESENTATION_REPRESENTATION('NONE',(#50),#6);
#50=STYLED_ITEM($,(#48),#40);
#51=ADVANCED_BREP_SHAPE_REPRESENTATION('NONE',(#40),#6);
#52=SHAPE_REPRESENTATION_RELATIONSHIP('','',#1,#51);
#53=ADVANCED_FACE('',(#75),#77,.T.);
#54=ADVANCED_FACE('',(#82),#84,.T.);
#55=ADVANCED_FACE('',(#89),#91,.T.);
#56=ADVANCED_FACE('',(#96),#98,.F.);
#57=ADVANCED_FACE('',(#103),#105,.T.);
#58=ADVANCED_FACE('',(#110),#112,.T.);
#59=ADVANCED_FACE('',(#117),#119,.F.);
#60=ADVANCED_FACE('',(#124),#126,.T.);
#61=ADVANCED_FACE('',(#131),#133,.T.);
#62=ADVANCED_FACE('',(#138),#140,.F.);
#63=ADVANCED_FACE('',(#145),#147,.T.);
#64=ADVANCED_FACE('',(#152),#154,.T.);
#65=ADVANCED_FACE('',(#159),#161,.T.);
#66=ADVANCED_FACE('',(#166),#168,.F.);
#67=ADVANCED_FACE('',(#173),#175,.T.);
#68=ADVANCED_FACE('',(#180),#182,.T.);
#69=ADVANCED_FACE('',(#187),#189,.T.);
#70=ADVANCED_FACE('',(#194),#196,.T.);
#71=ADVANCED_FACE('',(#201),#203,.F.);
#72=ADVANCED_FACE('',(#208),#210,.T.);
#73=ADVANCED_FACE('',(#215),#217,.T.);
#74=ADVANCED_FACE('',(#222),#224,.T.);
#75=FACE_BOUND('',#76,.T.);
#76=EDGE_LOOP('',(#229,#230,#231,#232));
#77=PLANE('',#78);
#78=AXIS2_PLACEMENT_3D('',#79,#80,#81);
#79=CARTESIAN_POINT('',(0.,60.,30.));
#80=DIRECTION('',(-1.,0.,0.));
#81=DIRECTION('',(0.,-2.83276944882399E-016,-1.));
#82=FACE_BOUND('',#83,.T.);
#83=EDGE_LOOP('',(#233,#234,#235,#236));
#84=PLANE('',#85);
#85=AXIS2_PLACEMENT_3D('',#86,#87,#88);
#86=CARTESIAN_POINT('',(0.,57.,-53.7389372261284));
#87=DIRECTION('',(0.,-1.,2.83276944882399E-016));
#88=DIRECTION('',(1.,0.,0.));
#89=FACE_BOUND('',#90,.T.);
#90=EDGE_LOOP('',(#237,#238,#239,#240));
#91=PLANE('',#92);
#92=AXIS2_PLACEMENT_3D('',#93,#94,#95);
#93=CARTESIAN_POINT('',(6.E003,60.,8.));
#94=DIRECTION('',(1.,0.,0.));
#95=DIRECTION('',(0.,2.83276944882399E-016,1.));
#96=FACE_BOUND('',#97,.T.);
#97=EDGE_LOOP('',(#241,#242,#243,#244));
#98=PLANE('',#99);
#99=AXIS2_PLACEMENT_3D('',#100,#101,#102);
#100=CARTESIAN_POINT('',(0.,60.,-53.7389372261284));
#101=DIRECTION('',(0.,-1.,2.83276944882399E-016));
#102=DIRECTION('',(1.,0.,0.));
#103=FACE_BOUND('',#104,.T.);
#104=EDGE_LOOP('',(#245,#246,#247,#248));
#105=PLANE('',#106);
#106=AXIS2_PLACEMENT_3D('',#107,#108,#109);
#107=CARTESIAN_POINT('',(6.E003,60.,30.));
#108=DIRECTION('',(0.,2.83276944882399E-016,1.));
#109=DIRECTION('',(-1.,0.,0.));
#110=FACE_BOUND('',#111,.T.);
#111=EDGE_LOOP('',(#249,#250,#251,#252));
#112=PLANE('',#113);
#113=AXIS2_PLACEMENT_3D('',#114,#115,#116);
#114=CARTESIAN_POINT('',(0.,0.,3.));
#115=DIRECTION('',(0.,0.,1.));
#116=DIRECTION('',(1.,0.,0.));
#117=FACE_BOUND('',#118,.T.);
#118=EDGE_LOOP('',(#253,#254,#255,#256));
#119=PLANE('',#120);
#120=AXIS2_PLACEMENT_3D('',#121,#122,#123);
#121=CARTESIAN_POINT('',(0.,0.,0.));
#122=DIRECTION('',(0.,0.,1.));
#123=DIRECTION('',(1.,0.,0.));
#124=FACE_BOUND('',#125,.T.);
#125=EDGE_LOOP('',(#257,#258,#259,#260));
#126=PLANE('',#127);
#127=AXIS2_PLACEMENT_3D('',#128,#129,#130);
#128=CARTESIAN_POINT('',(6.E003,0.,0.));
#129=DIRECTION('',(1.,0.,0.));
#130=DIRECTION('',(0.,1.,0.));
#131=FACE_BOUND('',#132,.T.);
#132=EDGE_LOOP('',(#261,#262,#263,#264));
#133=PLANE('',#134);
#134=AXIS2_PLACEMENT_3D('',#135,#136,#137);
#135=CARTESIAN_POINT('',(0.,60.,0.));
#136=DIRECTION('',(-1.,0.,0.));
#137=DIRECTION('',(0.,-1.,0.));
#138=FACE_BOUND('',#139,.T.);
#139=EDGE_LOOP('',(#265,#266,#267,#268));
#140=CYLINDRICAL_SURFACE('',#141,5.);
#141=AXIS2_PLACEMENT_3D('',#142,#143,#144);
#142=CARTESIAN_POINT('',(0.,52.,8.));
#143=DIRECTION('',(-1.,0.,0.));
#144=DIRECTION('',(0.,0.,-1.));
#145=FACE_BOUND('',#146,.T.);
#146=EDGE_LOOP('',(#269,#270,#271,#272));
#147=CYLINDRICAL_SURFACE('',#148,8.);
#148=AXIS2_PLACEMENT_3D('',#149,#150,#151);
#149=CARTESIAN_POINT('',(6.E003,52.,8.));
#150=DIRECTION('',(1.,0.,0.));
#151=DIRECTION('',(0.,0.,-1.));
#152=FACE_BOUND('',#153,.T.);
#153=EDGE_LOOP('',(#273,#274,#275,#276));
#154=PLANE('',#155);
#155=AXIS2_PLACEMENT_3D('',#156,#157,#158);
#156=CARTESIAN_POINT('',(6.E003,57.,8.));
#157=DIRECTION('',(1.,0.,0.));
#158=DIRECTION('',(0.,-2.83276944882399E-016,-1.));
#159=FACE_BOUND('',#160,.T.);
#160=EDGE_LOOP('',(#277,#278,#279,#280));
#161=PLANE('',#162);
#162=AXIS2_PLACEMENT_3D('',#163,#164,#165);
#163=CARTESIAN_POINT('',(0.,52.,3.));
#164=DIRECTION('',(-1.,0.,0.));
#165=DIRECTION('',(0.,1.,0.));
#166=FACE_BOUND('',#167,.T.);
#167=EDGE_LOOP('',(#281,#282,#283,#284));
#168=CYLINDRICAL_SURFACE('',#169,1.);
#169=AXIS2_PLACEMENT_3D('',#170,#171,#172);
#170=CARTESIAN_POINT('',(6.E003,4.,4.));
#171=DIRECTION('',(1.,0.,0.));
#172=DIRECTION('',(0.,0.,-1.));
#173=FACE_BOUND('',#174,.T.);
#174=EDGE_LOOP('',(#285,#286,#287,#288));
#175=CYLINDRICAL_SURFACE('',#176,4.);
#176=AXIS2_PLACEMENT_3D('',#177,#178,#179);
#177=CARTESIAN_POINT('',(0.,4.,4.));
#178=DIRECTION('',(-1.,0.,0.));
#179=DIRECTION('',(0.,0.,-1.));
#180=FACE_BOUND('',#181,.T.);
#181=EDGE_LOOP('',(#289,#290,#291,#292));
#182=PLANE('',#183);
#183=AXIS2_PLACEMENT_3D('',#184,#185,#186);
#184=CARTESIAN_POINT('',(6.E003,4.18111888915926E-015,30.));
#185=DIRECTION('',(1.,0.,0.));
#186=DIRECTION('',(0.,-1.60812264967664E-016,-1.));
#187=FACE_BOUND('',#188,.T.);
#188=EDGE_LOOP('',(#293,#294,#295,#296));
#189=PLANE('',#190);
#190=AXIS2_PLACEMENT_3D('',#191,#192,#193);
#191=CARTESIAN_POINT('',(0.,3.,4.54424808105123));
#192=DIRECTION('',(0.,1.,-1.60812264967664E-016));
#193=DIRECTION('',(1.,0.,0.));
#194=FACE_BOUND('',#195,.T.);
#195=EDGE_LOOP('',(#297,#298,#299,#300));
#196=PLANE('',#197);
#197=AXIS2_PLACEMENT_3D('',#198,#199,#200);
#198=CARTESIAN_POINT('',(0.,0.,4.));
#199=DIRECTION('',(-1.,0.,-0.));
#200=DIRECTION('',(0.,1.60812264967664E-016,1.));
#201=FACE_BOUND('',#202,.T.);
#202=EDGE_LOOP('',(#301,#302,#303,#304));
#203=PLANE('',#204);
#204=AXIS2_PLACEMENT_3D('',#205,#206,#207);
#205=CARTESIAN_POINT('',(0.,8.75217666181524E-017,4.54424808105123));
#206=DIRECTION('',(0.,1.,-1.60812264967664E-016));
#207=DIRECTION('',(1.,0.,0.));
#208=FACE_BOUND('',#209,.T.);
#209=EDGE_LOOP('',(#305,#306,#307,#308));
#210=PLANE('',#211);
#211=AXIS2_PLACEMENT_3D('',#212,#213,#214);
#212=CARTESIAN_POINT('',(0.,4.18111888915926E-015,30.));
#213=DIRECTION('',(0.,1.60812264967664E-016,1.));
#214=DIRECTION('',(1.,0.,0.));
#215=FACE_BOUND('',#216,.T.);
#216=EDGE_LOOP('',(#309,#310,#311,#312));
#217=PLANE('',#218);
#218=AXIS2_PLACEMENT_3D('',#219,#220,#221);
#219=CARTESIAN_POINT('',(6.E003,4.,3.));
#220=DIRECTION('',(1.,0.,0.));
#221=DIRECTION('',(0.,-1.,0.));
#222=FACE_BOUND('',#223,.T.);
#223=EDGE_LOOP('',(#313,#314,#315,#316));
#224=PLANE('',#225);
#225=AXIS2_PLACEMENT_3D('',#226,#227,#228);
#226=CARTESIAN_POINT('',(0.,3.,4.));
#227=DIRECTION('',(-1.,-0.,0.));
#228=DIRECTION('',(0.,-1.60812264967664E-016,-1.));
#229=ORIENTED_EDGE('',*,*,#317,.T.);
#230=ORIENTED_EDGE('',*,*,#318,.T.);
#231=ORIENTED_EDGE('',*,*,#319,.F.);
#232=ORIENTED_EDGE('',*,*,#320,.F.);
#233=ORIENTED_EDGE('',*,*,#321,.F.);
#234=ORIENTED_EDGE('',*,*,#322,.T.);
#235=ORIENTED_EDGE('',*,*,#323,.T.);
#236=ORIENTED_EDGE('',*,*,#319,.T.);
#237=ORIENTED_EDGE('',*,*,#324,.T.);
#238=ORIENTED_EDGE('',*,*,#325,.T.);
#239=ORIENTED_EDGE('',*,*,#322,.F.);
#240=ORIENTED_EDGE('',*,*,#326,.F.);
#241=ORIENTED_EDGE('',*,*,#327,.T.);
#242=ORIENTED_EDGE('',*,*,#317,.F.);
#243=ORIENTED_EDGE('',*,*,#328,.F.);
#244=ORIENTED_EDGE('',*,*,#324,.F.);
#245=ORIENTED_EDGE('',*,*,#328,.T.);
#246=ORIENTED_EDGE('',*,*,#320,.T.);
#247=ORIENTED_EDGE('',*,*,#323,.F.);
#248=ORIENTED_EDGE('',*,*,#325,.F.);
#249=ORIENTED_EDGE('',*,*,#329,.T.);
#250=ORIENTED_EDGE('',*,*,#330,.T.);
#251=ORIENTED_EDGE('',*,*,#331,.T.);
#252=ORIENTED_EDGE('',*,*,#332,.T.);
#253=ORIENTED_EDGE('',*,*,#333,.T.);
#254=ORIENTED_EDGE('',*,*,#334,.F.);
#255=ORIENTED_EDGE('',*,*,#335,.T.);
#256=ORIENTED_EDGE('',*,*,#336,.F.);
#257=ORIENTED_EDGE('',*,*,#337,.T.);
#258=ORIENTED_EDGE('',*,*,#336,.T.);
#259=ORIENTED_EDGE('',*,*,#338,.T.);
#260=ORIENTED_EDGE('',*,*,#330,.F.);
#261=ORIENTED_EDGE('',*,*,#339,.T.);
#262=ORIENTED_EDGE('',*,*,#332,.F.);
#263=ORIENTED_EDGE('',*,*,#340,.T.);
#264=ORIENTED_EDGE('',*,*,#334,.T.);
#265=ORIENTED_EDGE('',*,*,#321,.T.);
#266=ORIENTED_EDGE('',*,*,#341,.T.);
#267=ORIENTED_EDGE('',*,*,#331,.F.);
#268=ORIENTED_EDGE('',*,*,#342,.T.);
#269=ORIENTED_EDGE('',*,*,#327,.F.);
#270=ORIENTED_EDGE('',*,*,#343,.F.);
#271=ORIENTED_EDGE('',*,*,#335,.F.);
#272=ORIENTED_EDGE('',*,*,#344,.F.);
#273=ORIENTED_EDGE('',*,*,#342,.F.);
#274=ORIENTED_EDGE('',*,*,#338,.F.);
#275=ORIENTED_EDGE('',*,*,#343,.T.);
#276=ORIENTED_EDGE('',*,*,#326,.T.);
#277=ORIENTED_EDGE('',*,*,#341,.F.);
#278=ORIENTED_EDGE('',*,*,#318,.F.);
#279=ORIENTED_EDGE('',*,*,#344,.T.);
#280=ORIENTED_EDGE('',*,*,#340,.F.);
#281=ORIENTED_EDGE('',*,*,#345,.T.);
#282=ORIENTED_EDGE('',*,*,#346,.T.);
#283=ORIENTED_EDGE('',*,*,#329,.F.);
#284=ORIENTED_EDGE('',*,*,#347,.T.);
#285=ORIENTED_EDGE('',*,*,#348,.F.);
#286=ORIENTED_EDGE('',*,*,#349,.F.);
#287=ORIENTED_EDGE('',*,*,#333,.F.);
#288=ORIENTED_EDGE('',*,*,#350,.F.);
#289=ORIENTED_EDGE('',*,*,#351,.T.);
#290=ORIENTED_EDGE('',*,*,#352,.T.);
#291=ORIENTED_EDGE('',*,*,#353,.F.);
#292=ORIENTED_EDGE('',*,*,#354,.F.);
#293=ORIENTED_EDGE('',*,*,#345,.F.);
#294=ORIENTED_EDGE('',*,*,#355,.T.);
#295=ORIENTED_EDGE('',*,*,#356,.T.);
#296=ORIENTED_EDGE('',*,*,#353,.T.);
#297=ORIENTED_EDGE('',*,*,#357,.T.);
#298=ORIENTED_EDGE('',*,*,#358,.T.);
#299=ORIENTED_EDGE('',*,*,#355,.F.);
#300=ORIENTED_EDGE('',*,*,#359,.F.);
#301=ORIENTED_EDGE('',*,*,#348,.T.);
#302=ORIENTED_EDGE('',*,*,#351,.F.);
#303=ORIENTED_EDGE('',*,*,#360,.F.);
#304=ORIENTED_EDGE('',*,*,#357,.F.);
#305=ORIENTED_EDGE('',*,*,#360,.T.);
#306=ORIENTED_EDGE('',*,*,#354,.T.);
#307=ORIENTED_EDGE('',*,*,#356,.F.);
#308=ORIENTED_EDGE('',*,*,#358,.F.);
#309=ORIENTED_EDGE('',*,*,#346,.F.);
#310=ORIENTED_EDGE('',*,*,#352,.F.);
#311=ORIENTED_EDGE('',*,*,#350,.T.);
#312=ORIENTED_EDGE('',*,*,#337,.F.);
#313=ORIENTED_EDGE('',*,*,#347,.F.);
#314=ORIENTED_EDGE('',*,*,#339,.F.);
#315=ORIENTED_EDGE('',*,*,#349,.T.);
#316=ORIENTED_EDGE('',*,*,#359,.T.);
#317=EDGE_CURVE('',#361,#362,#363,.T.);
#318=EDGE_CURVE('',#362,#364,#365,.T.);
#319=EDGE_CURVE('',#366,#364,#367,.T.);
#320=EDGE_CURVE('',#361,#366,#368,.T.);
#321=EDGE_CURVE('',#369,#364,#370,.T.);
#322=EDGE_CURVE('',#369,#371,#372,.T.);
#323=EDGE_CURVE('',#371,#366,#373,.T.);
#324=EDGE_CURVE('',#374,#375,#376,.T.);
#325=EDGE_CURVE('',#375,#371,#377,.T.);
#326=EDGE_CURVE('',#374,#369,#378,.T.);
#327=EDGE_CURVE('',#374,#362,#379,.T.);
#328=EDGE_CURVE('',#375,#361,#380,.T.);
#329=EDGE_CURVE('',#381,#382,#383,.T.);
#330=EDGE_CURVE('',#382,#384,#385,.T.);
#331=EDGE_CURVE('',#384,#386,#387,.T.);
#332=EDGE_CURVE('',#386,#381,#388,.T.);
#333=EDGE_CURVE('',#389,#390,#391,.T.);
#334=EDGE_CURVE('',#392,#390,#393,.T.);
#335=EDGE_CURVE('',#392,#394,#395,.T.);
#336=EDGE_CURVE('',#389,#394,#396,.T.);
#337=EDGE_CURVE('',#382,#389,#397,.T.);
#338=EDGE_CURVE('',#394,#384,#398,.T.);
#339=EDGE_CURVE('',#390,#381,#399,.T.);
#340=EDGE_CURVE('',#386,#392,#400,.T.);
#341=EDGE_CURVE('',#364,#386,#401,.T.);
#342=EDGE_CURVE('',#384,#369,#402,.T.);
#343=EDGE_CURVE('',#394,#374,#403,.T.);
#344=EDGE_CURVE('',#362,#392,#404,.T.);
#345=EDGE_CURVE('',#405,#406,#407,.T.);
#346=EDGE_CURVE('',#406,#382,#408,.T.);
#347=EDGE_CURVE('',#381,#405,#409,.T.);
#348=EDGE_CURVE('',#410,#411,#412,.T.);
#349=EDGE_CURVE('',#390,#410,#413,.T.);
#350=EDGE_CURVE('',#411,#389,#414,.T.);
#351=EDGE_CURVE('',#415,#411,#416,.T.);
#352=EDGE_CURVE('',#411,#406,#417,.T.);
#353=EDGE_CURVE('',#418,#406,#419,.T.);
#354=EDGE_CURVE('',#415,#418,#420,.T.);
#355=EDGE_CURVE('',#405,#421,#422,.T.);
#356=EDGE_CURVE('',#421,#418,#423,.T.);
#357=EDGE_CURVE('',#410,#424,#425,.T.);
#358=EDGE_CURVE('',#424,#421,#426,.T.);
#359=EDGE_CURVE('',#410,#405,#427,.T.);
#360=EDGE_CURVE('',#424,#415,#428,.T.);
#361=VERTEX_POINT('',#429);
#362=VERTEX_POINT('',#430);
#363=LINE('',#431,#432);
#364=VERTEX_POINT('',#434);
#365=LINE('',#435,#436);
#366=VERTEX_POINT('',#438);
#367=LINE('',#439,#440);
#368=LINE('',#442,#443);
#369=VERTEX_POINT('',#445);
#370=LINE('',#446,#447);
#371=VERTEX_POINT('',#449);
#372=LINE('',#450,#451);
#373=LINE('',#453,#454);
#374=VERTEX_POINT('',#456);
#375=VERTEX_POINT('',#457);
#376=LINE('',#458,#459);
#377=LINE('',#461,#462);
#378=LINE('',#464,#465);
#379=LINE('',#467,#468);
#380=LINE('',#470,#471);
#381=VERTEX_POINT('',#473);
#382=VERTEX_POINT('',#474);
#383=LINE('',#475,#476);
#384=VERTEX_POINT('',#478);
#385=LINE('',#479,#480);
#386=VERTEX_POINT('',#482);
#387=LINE('',#483,#484);
#388=LINE('',#486,#487);
#389=VERTEX_POINT('',#489);
#390=VERTEX_POINT('',#490);
#391=LINE('',#491,#492);
#392=VERTEX_POINT('',#494);
#393=LINE('',#495,#496);
#394=VERTEX_POINT('',#498);
#395=LINE('',#499,#500);
#396=LINE('',#502,#503);
#397=LINE('',#505,#506);
#398=LINE('',#508,#509);
#399=LINE('',#511,#512);
#400=LINE('',#514,#515);
#401=CIRCLE('',#517,5.);
#402=CIRCLE('',#521,5.);
#403=CIRCLE('',#525,8.);
#404=CIRCLE('',#529,8.);
#405=VERTEX_POINT('',#533);
#406=VERTEX_POINT('',#534);
#407=LINE('',#535,#536);
#408=CIRCLE('',#538,1.);
#409=CIRCLE('',#542,1.);
#410=VERTEX_POINT('',#546);
#411=VERTEX_POINT('',#547);
#412=LINE('',#548,#549);
#413=CIRCLE('',#551,4.);
#414=CIRCLE('',#555,4.);
#415=VERTEX_POINT('',#559);
#416=LINE('',#560,#561);
#417=LINE('',#563,#564);
#418=VERTEX_POINT('',#566);
#419=LINE('',#567,#568);
#420=LINE('',#570,#571);
#421=VERTEX_POINT('',#573);
#422=LINE('',#574,#575);
#423=LINE('',#577,#578);
#424=VERTEX_POINT('',#580);
#425=LINE('',#581,#582);
#426=LINE('',#584,#585);
#427=LINE('',#587,#588);
#428=LINE('',#590,#591);
#429=CARTESIAN_POINT('',(0.,60.,30.));
#430=CARTESIAN_POINT('',(0.,60.,8.));
#431=CARTESIAN_POINT('',(0.,60.,30.));
#432=VECTOR('',#433,1.);
#433=DIRECTION('',(0.,-3.22973970800046E-016,-1.));
#434=CARTESIAN_POINT('',(0.,57.,8.));
#435=CARTESIAN_POINT('',(0.,60.,8.));
#436=VECTOR('',#437,1.);
#437=DIRECTION('',(0.,-1.,0.));
#438=CARTESIAN_POINT('',(0.,57.,30.));
#439=CARTESIAN_POINT('',(0.,57.,30.));
#440=VECTOR('',#441,1.);
#441=DIRECTION('',(0.,-3.22973970800046E-016,-1.));
#442=CARTESIAN_POINT('',(0.,60.,30.));
#443=VECTOR('',#444,1.);
#444=DIRECTION('',(0.,-1.,0.));
#445=CARTESIAN_POINT('',(6.E003,57.,8.));
#446=CARTESIAN_POINT('',(6.E003,57.,8.));
#447=VECTOR('',#448,1.);
#448=DIRECTION('',(-1.,0.,0.));
#449=CARTESIAN_POINT('',(6.E003,57.,30.));
#450=CARTESIAN_POINT('',(6.E003,57.,8.));
#451=VECTOR('',#452,1.);
#452=DIRECTION('',(0.,3.22973970800046E-016,1.));
#453=CARTESIAN_POINT('',(6.E003,57.,30.));
#454=VECTOR('',#455,1.);
#455=DIRECTION('',(-1.,0.,0.));
#456=CARTESIAN_POINT('',(6.E003,60.,8.));
#457=CARTESIAN_POINT('',(6.E003,60.,30.));
#458=CARTESIAN_POINT('',(6.E003,60.,8.));
#459=VECTOR('',#460,1.);
#460=DIRECTION('',(0.,3.22973970800046E-016,1.));
#461=CARTESIAN_POINT('',(6.E003,60.,30.));
#462=VECTOR('',#463,1.);
#463=DIRECTION('',(0.,-1.,0.));
#464=CARTESIAN_POINT('',(6.E003,60.,8.));
#465=VECTOR('',#466,1.);
#466=DIRECTION('',(0.,-1.,2.96059473233375E-016));
#467=CARTESIAN_POINT('',(6.E003,60.,8.));
#468=VECTOR('',#469,1.);
#469=DIRECTION('',(-1.,0.,0.));
#470=CARTESIAN_POINT('',(6.E003,60.,30.));
#471=VECTOR('',#472,1.);
#472=DIRECTION('',(-1.,0.,0.));
#473=CARTESIAN_POINT('',(0.,4.,3.));
#474=CARTESIAN_POINT('',(6.E003,4.,3.));
#475=CARTESIAN_POINT('',(0.,4.,3.));
#476=VECTOR('',#477,1.);
#477=DIRECTION('',(1.,0.,0.));
#478=CARTESIAN_POINT('',(6.E003,52.,3.));
#479=CARTESIAN_POINT('',(6.E003,4.,3.));
#480=VECTOR('',#481,1.);
#481=DIRECTION('',(0.,1.,0.));
#482=CARTESIAN_POINT('',(0.,52.,3.));
#483=CARTESIAN_POINT('',(6.E003,52.,3.));
#484=VECTOR('',#485,1.);
#485=DIRECTION('',(-1.,0.,0.));
#486=CARTESIAN_POINT('',(0.,52.,3.));
#487=VECTOR('',#488,1.);
#488=DIRECTION('',(0.,-1.,0.));
#489=CARTESIAN_POINT('',(6.E003,4.,0.));
#490=CARTESIAN_POINT('',(0.,4.,0.));
#491=CARTESIAN_POINT('',(6.E003,4.,0.));
#492=VECTOR('',#493,1.);
#493=DIRECTION('',(-1.,0.,0.));
#494=CARTESIAN_POINT('',(0.,52.,0.));
#495=CARTESIAN_POINT('',(0.,52.,0.));
#496=VECTOR('',#497,1.);
#497=DIRECTION('',(0.,-1.,0.));
#498=CARTESIAN_POINT('',(6.E003,52.,0.));
#499=CARTESIAN_POINT('',(0.,52.,0.));
#500=VECTOR('',#501,1.);
#501=DIRECTION('',(1.,0.,0.));
#502=CARTESIAN_POINT('',(6.E003,4.,0.));
#503=VECTOR('',#504,1.);
#504=DIRECTION('',(0.,1.,0.));
#505=CARTESIAN_POINT('',(6.E003,4.,3.));
#506=VECTOR('',#507,1.);
#507=DIRECTION('',(0.,0.,-1.));
#508=CARTESIAN_POINT('',(6.E003,52.,0.));
#509=VECTOR('',#510,1.);
#510=DIRECTION('',(0.,0.,1.));
#511=CARTESIAN_POINT('',(0.,4.,0.));
#512=VECTOR('',#513,1.);
#513=DIRECTION('',(0.,0.,1.));
#514=CARTESIAN_POINT('',(0.,52.,3.));
#515=VECTOR('',#516,1.);
#516=DIRECTION('',(0.,0.,-1.));
#517=AXIS2_PLACEMENT_3D('',#518,#519,#520);
#518=CARTESIAN_POINT('',(0.,52.,8.));
#519=DIRECTION('',(-1.,0.,0.));
#520=DIRECTION('',(0.,1.,0.));
#521=AXIS2_PLACEMENT_3D('',#522,#523,#524);
#522=CARTESIAN_POINT('',(6.E003,52.,8.));
#523=DIRECTION('',(1.,0.,0.));
#524=DIRECTION('',(0.,0.,-1.));
#525=AXIS2_PLACEMENT_3D('',#526,#527,#528);
#526=CARTESIAN_POINT('',(6.E003,52.,8.));
#527=DIRECTION('',(1.,0.,0.));
#528=DIRECTION('',(0.,0.,-1.));
#529=AXIS2_PLACEMENT_3D('',#530,#531,#532);
#530=CARTESIAN_POINT('',(0.,52.,8.));
#531=DIRECTION('',(-1.,0.,0.));
#532=DIRECTION('',(0.,1.,0.));
#533=CARTESIAN_POINT('',(0.,3.,4.));
#534=CARTESIAN_POINT('',(6.E003,3.,4.));
#535=CARTESIAN_POINT('',(0.,3.,4.));
#536=VECTOR('',#537,1.);
#537=DIRECTION('',(1.,0.,0.));
#538=AXIS2_PLACEMENT_3D('',#539,#540,#541);
#539=CARTESIAN_POINT('',(6.E003,4.,4.));
#540=DIRECTION('',(1.,0.,0.));
#541=DIRECTION('',(0.,-1.,0.));
#542=AXIS2_PLACEMENT_3D('',#543,#544,#545);
#543=CARTESIAN_POINT('',(0.,4.,4.));
#544=DIRECTION('',(-1.,-0.,0.));
#545=DIRECTION('',(0.,0.,-1.));
#546=CARTESIAN_POINT('',(0.,0.,4.));
#547=CARTESIAN_POINT('',(6.E003,6.16297582203915E-032,4.));
#548=CARTESIAN_POINT('',(0.,0.,4.));
#549=VECTOR('',#550,1.);
#550=DIRECTION('',(1.,0.,0.));
#551=AXIS2_PLACEMENT_3D('',#552,#553,#554);
#552=CARTESIAN_POINT('',(0.,4.,4.));
#553=DIRECTION('',(-1.,-0.,0.));
#554=DIRECTION('',(0.,-1.11022302462516E-016,-1.));
#555=AXIS2_PLACEMENT_3D('',#556,#557,#558);
#556=CARTESIAN_POINT('',(6.E003,4.,4.));
#557=DIRECTION('',(1.,0.,0.));
#558=DIRECTION('',(0.,-1.,0.));
#559=CARTESIAN_POINT('',(6.E003,4.18111888915926E-015,30.));
#560=CARTESIAN_POINT('',(6.E003,4.18111888915926E-015,30.));
#561=VECTOR('',#562,1.);
#562=DIRECTION('',(0.,-1.60812264967664E-016,-1.));
#563=CARTESIAN_POINT('',(6.E003,0.,4.));
#564=VECTOR('',#565,1.);
#565=DIRECTION('',(0.,1.,-1.48029736616688E-016));
#566=CARTESIAN_POINT('',(6.E003,3.,30.));
#567=CARTESIAN_POINT('',(6.E003,3.,30.));
#568=VECTOR('',#569,1.);
#569=DIRECTION('',(0.,-1.53723188025022E-016,-1.));
#570=CARTESIAN_POINT('',(6.E003,4.18111888915926E-015,30.));
#571=VECTOR('',#572,1.);
#572=DIRECTION('',(0.,1.,0.));
#573=CARTESIAN_POINT('',(0.,3.,30.));
#574=CARTESIAN_POINT('',(0.,3.,4.));
#575=VECTOR('',#576,1.);
#576=DIRECTION('',(0.,1.53723188025022E-016,1.));
#577=CARTESIAN_POINT('',(0.,3.,30.));
#578=VECTOR('',#579,1.);
#579=DIRECTION('',(1.,0.,0.));
#580=CARTESIAN_POINT('',(0.,4.18111888915926E-015,30.));
#581=CARTESIAN_POINT('',(0.,0.,4.));
#582=VECTOR('',#583,1.);
#583=DIRECTION('',(0.,1.60812264967664E-016,1.));
#584=CARTESIAN_POINT('',(0.,4.18111888915926E-015,30.));
#585=VECTOR('',#586,1.);
#586=DIRECTION('',(0.,1.,0.));
#587=CARTESIAN_POINT('',(0.,0.,4.));
#588=VECTOR('',#589,1.);
#589=DIRECTION('',(0.,1.,-2.96059473233375E-016));
#590=CARTESIAN_POINT('',(0.,4.18111888915926E-015,30.));
#591=VECTOR('',#592,1.);
#592=DIRECTION('',(1.,0.,0.));
ENDSEC;
END-ISO-10303-21;
